> MIDI
> Chords

> Videos
Artist: Dan Reeder | Song: Beautiful
 

  

 

 






 
Dan Reeder, Beautiful Tabs

 
 Dan Reeder

Buy: Dan Reeder 
Reeder Dan 
Dan Reeder 
> Reeder Dan 
Tabs > BeautifulArtist/Band: Reeder Dan Tabs
Song: Beautiful Tab



Capo 5
intro
C/G F/C C/G F/C G

tab

    C/G              F/C          C/G      F/C       G
e----------------------------1------------------------------1--
b-------------1--------------1------------------1-----------0--
g-------------0----------2------------- 0-----2-----------0----
d--------2-------------3---3----------2-----3-----------0------
a-----3----3---------3--------------3-----3-----------2--------
E---3-------------3---------------3-----------------3----------



Verse:

C/G    F/C      C/G       G  [repeat as needed]


Chorus:
“but i am not you…”
F/C        C/G      F/C       G

“sometimes you’re just…”
F/C        C/G      F/C     C/G (final chord)



Capo 5
           C/G                 F/C
e--------------------------------1--------------------------
b----------1---------------------1--------------------------
g--------------------------------2--------------------------
d----------2---------------------3--------------------------
a----------3---------------------3--------------------------
E----------3---------------------x-------------------------- 
 Please, support Dan Reeder.
Reeder Dan CDs | Buy 
Reeder Dan Posters






         

 
  
All 
tabs are the author's own work and represents their interpretation of the song, 
tablature for bass,
or lead guitar. You may only use this tab or chord file for private study, scholarship 
or research. 
Dan Reeder Beautiful Tabs, Chords
 date: 	Thu, 30 Aug 2012
   id: 	526792
 href: 	http://www.allcountrytabs.com/tabs/reeder-dan/beautiful-17196.html