> MIDI
> Chords

> Videos
 Artist: Beatles 

   Song: I Want You (She's So Heavy) 

 A instrumental ending.
 Start with a Dm chord.
 At the 3rd measure,
 bar the first fret.


Repeat:

E-|------------1---------|-----------1---------|-----------1---------|
B-|---------3-----3------|--------3-----3------|--------3-----3------|
G-|.-----2-----------2---|-----2-----0-----2---|-----1-----------1---|
D-|.--0--------2---------|--3------------------|--2------------------|
A-|----------------------|---------------------|--------------3--2---|
E-|----------------------|---------------------|---------------------|
                                                                              

E-|------------1---------|-----------1---------|
B-|---------3-----3------|--------2-----2------|
G-|------1-----------1---|-----2-----------2--.|
D-|------------------0---|--------------3--2--.|
A-|---1-----------3------|--0------------------|
E-|----------------------|---------------------|

   

To end, last measure:

E-|-----------1---5---||
B-|--------2------6---||
G-|-----2---------6---||
D-|-------------------||
A-|--0----------------||
E-|-------------------||
Beatles - I Want You - tablature
 date: 	Wed, 28 Mar 2018
   id: 	522836
 href: 	text.php?id=522836
Guitar Tablature
Guitar Tablature
 Diatonic scale on C, guitar tablature
 type: 	image/png
 date: 	2016-02-03
   id: 	82
score: 	5.86